Concurso Musical !!!

Cumpleaños Feliz (Tab - Facil)

domingo, 24 de mayo de 2009 comentarios: 2
Tab de Cumpleaños Feliz o El payaso plin-plin

(es la misma cancion con distinta letra)

Una tablatura muy sencilla que nos ayuda a practicar algunos punteos.. =)

E--------------1--0------------------------3----1---
B--1--1--3--1---------1---1---3------1--------------
G---------------------------------------------------
D---------------------------------------------------
A---------------------------------------------------
E---------------------------------------------------

E---------8--5--1--1----0------6--6--5---1--3--1----
B--1--1--------------------3------------------------
G---------------------------------------------------
D---------------------------------------------------
A---------------------------------------------------
E---------------------------------------------------



Mana - Bendita tu luz (Tab) - Intro

lunes, 18 de mayo de 2009 comentarios: 2
Aca les dejo la cancion con la que empece y me animo mas con la guitarra!! Se llama bendita tu luz de Mana.. La verdad es sencilla, no requiere de mucha abilidad solo practica y llevar el tiempo y ritmo de la cancion... =)


Bendita Tu Luz - Mana


E--------------------*--------------------
B--------3-----------*-------3------------
G-----------0--------*----------2---------
D-----0--------------*----0---------------
A--------------------*--------------------
E--3-----------------*-2------------------


E-------------------*-----------------------
B--------3----------*-----------------------
G-----------0-------*-------0--------5----0-
D-----4-------------*----2--------4---------
A-------------------*-3--------5------------
E--0----------------*-----------------------

<..Para ver la tablatura completa con su solo descargate el tab aca abajo..>



Descarga Megaupload



Descarga Rapid-Share




La cucaracha (Tab - Facil)

jueves, 14 de mayo de 2009 comentarios: 54
Aca les traigo el primer tab del blog, un tab muy sencillo para aquellos que deseen practicar un poco, tambien es muy bueno para empezar a familiarizarse con las tablaturas, ya que las canciones vienen tanto en tabs como en acordes.



La cucaracha



E---------1-5---------1-5------1-1-0-0-----------------
B---1-1-1------1-1-1----------------------3-3-1--------
G------------------------------------------------------
D------------------------------------------------------
A------------------------------------------------------
E------------------------------------------------------


E----------0-3------------0-3--8-10-8-6-5-3-1----------
A--1-1-1-------1-1-1-----------------------------------
D------------------------------------------------------
G------------------------------------------------------
B------------------------------------------------------
E------------------------------------------------------


E-----------1-1-5-5-8-5--8-10-8-6-5-8-6-3--------------
A---1-1------------------------------------------------
D------------------------------------------------------
G------------------------------------------------------
B------------------------------------------------------
E------------------------------------------------------


E-----------0-0-3-3-6-3--8-10-8-6-5-3-1----------------
A--1-1-------------------------------------------------
D------------------------------------------------------
G------------------------------------------------------
B------------------------------------------------------
E------------------------------------------------------


Acordes Menores... (Guitarra)

comentarios


(Clic para ampliar)

Acordes Mayores... (Guitarra)

comentarios: 3


Signos usados en las tablaturas

martes, 12 de mayo de 2009 comentarios: 1
SLIDE (arrastre)

Se emplea un dedo para pasar de una nota a otra deslizándolo sobre la cuerda. Toca la nota FA y después desliza el primer dedo hasta el SOL en el tercer traste sin reducir la presión.

B ||---------6-s-8-----------



PULL OFF (tirón)


Se pulsa una nota y se hace sonar una o más notas en sentido descendente jalando un poco la cuerda hacia abajo. Pon el primer dedo en el primer traste y el tercero dedo en el tercer traste. Tocas SOL en el tercer traste y lo levantas tirando de la cuerda suavemente hacia abajo.

B ||---------8-p-6-----------




RELEASE (pre-bend)




Coloca el dedo sobre el LA del 10mo. traste y jala hacia arriba la cuerda hasta la posición de SI sin pulsarla. Una vez en ésta posición, pulsas la nota y mientras aún está sonando dejas que la cuerda regrese a la posición de LA manteniéndola apretada.

B ||-------10-r-8---------



VIBRATO

Coloca el dedo 1 sobre la nota FA del 6to. traste y balancéalo sin presionar demasiado el pulgar, también puedes mover el dedo arriba y abajo sin dejar de presionar la cuerda claro.

B ||--------6-v------------


HAMMER (martillo)



Se emplea un dedo para pasar de una nota a otra en la misma cuerda. Toca un FA con el dedo 1, y después sin apagar la nota de FA, coloca el dedo 3 en la nota de SOL.

B ||---------6-h-8-----------


BEND

Se hace que una nota suba de tonalidad por medio de un jalón. Toca la nota del traste 10 y la jalas hacia arriba, haciendo que la nota suba un tono, de LA a SI. A veces, cuando es menos que un tono se señala con fracciones.

B ||--------10-b-12----------



PALM MUTE (notas apagadas)



La abreviación PM significa que las notas señaladas deben ejecutarse de forma percusiva. Se apoya suavemente la palma de la mano derecha sobre las cuerdas para apagarlas y se tocan las notas, esto produce un sonido apagado.

PM ------------
B ||------6--8--10--11------



ARMONICO

Se toca la nota y con la yema de un dedo de la mano izquierda se corta el sonido haciéndolo más agudo.

e ||--------6-A-----------


Intercambio de banners - enlaces

comentarios: 1
Para realizar el intercambio, primero debes
realizarnos un enlace hacia nuestro blog..

Nos puedes enlazar por medio de banners o links de texto,
cualquiera es factible.. =)

Banners (468*60)













Banners (200*80)





Mini Banners (80*15)









Una vez nos hallas enlazado, dejanos un comentario en este post, y revisaremos tu web a la brevedad posible y verificaremos el enlace o banner..

Si tu enlace es aceptado seras notificado, en tu web y en este blog.

Gracias por el enlace !!!

Como leer tablaturas o Tab

comentarios: 2
En el primer post del blog, les enseñare como leer las tablaturas o tabs, ya que la gran mayoria de las canciones para guitarra vienen dadas en ellas, y tambien subire algunas tabs al blog..


Realmente para leer las tablaturas no se necesita un gran conocimiento solo practica, y constancia; ahora les dejo la primera leccion de " Como leer una tablatura o tab"


-*-*-*-*-*-*-*-*-*-*-*-*-*-*-*-*-*-*-*-*-*-*-*-*-*-*-*-*-*-*-




La tablatura es una representación del brazo de la guitarra por medio de seis lineas dispuestas de manera horizontal representando las cuerdas de la guitarra (si se trata de un bajo, seran cuatro lineas y asi con cualquier instrumento).

A la izquierda, al principio de cada linea horizontal se colocan letras en cifrado americano que dicen las notas de cada cuerda y se deduce en que afinacion debemos tocar la tablatura, si no hay ninguna indicación se toma la afinación estandar.

La cuerda mas aguda estara representada arriba de todo, es decir es la primera linea que se dibuja, en ocasiones la primera cuerda se dibuja con una "e" minúscula al lado.


e-------------------------------------------------------------
B-------------------------------------------------------------
G-------------------------------------------------------------
D-------------------------------------------------------------
A-------------------------------------------------------------
E-------------------------------------------------------------


Basicamente, la tablatura indica que nota se debe tocar en el lugar exacto (esta es la gran diferencia que existe con respecto a la partitura).

Los numeros representaran el traste en el que esta ubicada la nota, en el caso de que diga 0 se tomará como una cuerda al aire.

Es importante saber que en un TAB no se indican la duración de las notas, es mejor conocer la canción para darte una idea de como tocarla.

En ocasiones la duración puede deducirse segun la distancia que hay entre cada numero, por ejemplo si estan muy juntos el tema sera rápido. Tampoco te indicará que dedos debes utilizar para presionar las cuerdas.


Una tablatura puede verse mas o menos asi:

e-------------------------------------------------------------

B-----------------------------------------------0-------0-----
G--------------------------------------4-------2--------------
D-------------------------------------------------------------
A-----0-------------------3-------2------1--------------------
E-----0------2----3-------------------------------------------

Observa que cuando hay varios numeros uno encima de otro (como en el ejemplo) indicara que deben tocarse al mismo tiempo, representando un acorde.

El TAB debe leerse al igual que cualquier texto, de izquierda a derecha.La tablatura suele estar enriquezida por los distintos efectos que se pueden hacer con la guitarra.


Esta es la primera leccion sobre "como leer tablaturas" , te recomendamos visitar la leccion numero 2 sobre las "tecnicas usadas en las tablaturas" para poder comprender cualquier tab y simbolo en ella.. =)

Mis otros Blogs