Concurso Musical !!!

Estrellita - (Tablatura Facil)

domingo, 30 de agosto de 2009 comentarios: 2

Estrellita Tab (Intro):

E-------------0-0--------------------------------
B--------3-3-------3--------1-1--0-0-------------
G-0-0------------------------------------2-2--0--
D------------------------------------------------
A------------------------------------------------
E------------------------------------------------

E------------------------------------------------
B--3-3--1-1--0-0-------3-3--1-1--0-0-------------
G---------------------2----------------------2---
D------------------------------------------------
A------------------------------------------------
E------------------------------------------------

E-----------0-0--------------------------------
B------3-3-------3--------1-1--0-0-------------
G-0-0--------------------------------2-2--0----
D----------------------------------------------
A----------------------------------------------
E----------------------------------------------


Descarga Megaupload



Descarga Rapid-Share




Selva Negra - Mana (Full Tab + Solo)

viernes, 28 de agosto de 2009 comentarios: 1
Selva Negra - Mana

INTRO:


  ...Usar Capo en el 2do Traste...

1.----------------------------|---------------------------| 2.------2--------------2------|------3---------------3----| 3.---------4--------------4---|---------4---------------4-| 4.---4--------4-----4---------|---4--------4------4-------| 5.-2-------------2------------|-2--------------2----------| 6.----------------------------|---------------------------|

1.----------------------------|---------------------2----2| 2.------5--------------5------|------2-----------------2-3| 3.---------4--------------4---|---------4----------------4| 4.---4--------4-----4---------|---4--------4----4--------4| 5.-2-------------2------------|--------------------------2| 6.----------------------------|-5-------------3-----------|


<..Para ver la tablatura completa con su solo descargate el tab aca abajo..>

Descarga Megaupload



Descarga Rapid-Share




Nothing Else Matters - Metallica (Full-Tab)

lunes, 24 de agosto de 2009 comentarios: 2
Nothing Else Matters - Metallica

INTRO


|-----------0--------|-----------0--------|----------0--------| |--------0-----0-----|--------0-----0-----|-------0-----0-----| |-----0-----------0--|-----0-----------0--|----0-----------0--| |--------------------|--------------------|-------------------| |--------------------|--------------------|-------------------| |--0-----------------|--0-----------------|-0-----------------|

|-------0-----7-|-7-----7p0------|------7--8--7h87\5-|-7--5/2---| |-----0----0----|---0---0---0----|-0----0--0---------|-0-------5| |---0-----------|-----0--------0-|----0--------------|----------| |---------------|----------------|-------------------|----------| |---------------|----------------|-------------------|----------| |-0-------------|-0--------------|-0-----------------|----------|

|----------2p0------|----------0-0--0--|-0----------3p0-----0-|
|-5-----5------5----|-------5----5--5--|-5------5-------5---5-| |----5------------5-|----5-------5--5--|-5----5---5-------5-5-| |-------------------|------------------|----------------------| |-0-----------------|-0----------0--2--|-3--3---------------3-| |-------------------|------------------|----------------------|

|-0--------0h5p0---------|-----------12------|-------0------|
|-7----7---------7p0-0h5-|---12--12-----0----|-----0---0----| |-7--7---7---------------|---12------------0-|---0--------0-| |------------------------|-------------------|--------------| |-5-5--------------------|-------------------|--------------| |------------------------|-0-----------------|-0------------|


<..Para ver la tablatura completa con su solo descargate el tab aca abajo..>

Descarga Megaupload



Descarga Rapid-Share




Knocking On The Heavens Doors - Guns N Roses (Tab+Solo)

sábado, 22 de agosto de 2009 comentarios: 3

Knocking On The Heavens Doors - Guns N Roses

(Intro)

G5 ........... D ..............C................................
|-3--3-------------2-0-------|---------------0-----------------|
|-3----3---3-----3-----3---3-|---------1-----------1-----------|
|-0------0-----2---------2---|-0-----0---0-------0---0-0------0|
|-0----------0---------------|-0h2---------2---2-------0h2-----|
|----------------------------|-----3------------------------3--|
|-3--------------------------|---------------------------------|

G5 ...... D ...............Am.................................

|-3---------2-----2-0------|-0------------0--------------------|
|-3------3--3-----3------0-|-1----0h1-----------1--------------|
|-0-0--0----2--2------2----|-2--2-----2-------2---2------0---0-|
|-0-0--0----0--0-----------|-2----------2---2-------0h2----2---|
|--------------------------|-0---------------------------------|
|-3------------------------|-----------------------------------|

G5 ......... D ........... Am
Mamma take this badge from me

G5 ........ D ......... C
I can't use it anymore

G5 ............... D ............ Am
It's getting dark, too dark to see

G5 ................... D ............. C
Feels like I'm knockin' on heaven's door


<..Para ver la tablatura completa con su solo descargate el tab aca abajo..>

Descarga Megaupload



Descarga Rapid-Share




Paranoid - Black Sabbath (Tab+Solo)

jueves, 20 de agosto de 2009 comentarios: 3


Black Sabbath - Paranoid (1970)

Intro x4:
|----------------------------------------------------------
|---------------------------------------------------------- |---------------------------------------------------------- |------------------------------12h14-------12-------------- |-12h14--12h14--12h14---12h14--------12h14----14----------- |-12-----12-----12-----------------------------------------

Coro:
|---------------------------------------------------- |---------------------------------------------------- |---------------------------------------------------- |----------------------------------------12-------12- |-14141414141414141414-1212121212121212--10-12-14-10-
|-12121212121212121212-1010101010101010-----10-12----

Palm mute............ Palm mute.....................

<..Para ver la tablatura completa con su solo descargate el tab aca abajo..>

Descarga Megaupload



Descarga Rapid-Share




Misery Business - Paramore (Tab+Solo)

domingo, 16 de agosto de 2009 comentarios
Misery Business - Paramore

(Tab+Solo)

INTRO



d#||-----------------|-----------------|-----------------|-------------| A#||-----------------|-----------------|-----------------|-------------| F#||-----------------|-----------------|-----------------|-------------| C#||-4-4---4---------|-2-2---2-2-2---2-|-4-4---4---------|-0-0---0-0-0-| G#||-4-4---4-2-4-2-4-|-2-2---2-2-2---2-|-4-4---4-2-4-2-4-|-0-0---0-0-0-| C#||-4-4---4---------|-2-2---2-2-2---2-|-4-4---4---------|-0-0---0-0-0-|


d#||-----------------|-----------------|-----------------| A#||-----------------|-----------------|-----------------| F#||-----------------|-----------------|-----------------| C#||-4-4---4---------|-2-2---2-2-2---2-|-4-4---4---------| G#||-4-4---4-2-4-2-4-|-2-2---2-2-2---2-|-4-4---4-2-4-2-4-| C#||-4-4---4---------|-2-2---2-2-2---2-|-4-4---4---------|

d#||-------------------------|
A#||-------------------------|

F#||--------------6--9--9----|

C#||--------7--9-------------|

G#||--7--9-------------------|
C#||-------------------------|

...Sigue con la bateria el bajo y la voz...

Recuerda, si necesitas ayuda con la afinacion puedes preguntarnos...

<..Para ver la tablatura completa con su solo descargate el tab aca abajo..>


Descarga Megaupload



Descarga Rapid-Share




Ejercicios de Calentamiento Nro 2

sábado, 15 de agosto de 2009 comentarios
Otro grupo de ejercicios de calentamiento, para estirar bien los musculos antes de tocar con la guitarra...

Si tienen alguna duda no duden en preguntar.. =)



1|----------------------------------------------------2-3-4-5---
2|------------------------------------------1-2-3-4-------------
3|--------------------------------4-1-2-3-----------------------
4|----------------------3-4-1-2---------------------------------
5|------------2-3-4-1-------------------------------------------
6|--1-2-3-4-----------------------------------------------------



Redemption Song - Bob Marley (Tab-Intro)

miércoles, 12 de agosto de 2009 comentarios: 11
Bob Marley - Redemption Song
(Tab-Intro):


|----------------------------|-----------------|---------|
|----------------------------|-----------------|---------|
|----------------------------|-----------------|---------|
|----------------0p2-O-------|--------O--------|---------|
|---O-2—----0p3-----------2--|---O-0p2--2------|-3/2-O---|
|-3-------3------------------|--3--------------|------3--|

|-------------------------|------------|-------------|
|-------------------------|------------|-------------|
|-------------------------|------------|-------------|
|-----------0p2-O---------|------O-----|-------------|

|---O-2—-0p3------2-------|--O-2-------|-3-2-O-------|
|-3----3------------------|-3----------|-------3-----|

......

G                      Em7
Old Pirates, yes, they rob I.
    C         G/B             Am
Sold I to the merchant ships
G                      Em  C         G/B       Am
minutes after they took I   from the bottomless pit.

       G            Em7
But my hand was made strong
C           G/B          Am
By the hand of the Almighty.
     G                  Em   C          D
We forward in this generation triumphantly.

Coro
                         G  C    D          G
   Won't you help to sing    these songs of freedom?
          C     D       Em  C   D      G
   'Cause all I ever had,    redemption songs,
  C   D      G        C
   redemption songs.

(Ver Video)
..Para una tablatura completa, recuerda descargarla
mas abajo...



Descarga Megaupload



Descarga Rapid-Share




Los Simpsons - Guitar Tab (Facil)

lunes, 10 de agosto de 2009 comentarios: 126
Los Simpsons Tab (Intro):


Ver 1.0

e ------------------------------------------------------------
B ------------------------------------------------------------
G ------------2--0--------------------------------------------
D -----2--4---------2-----------------------------------------
A --3--------------------3--0---------------------------------
E ------------------------------2--2--2--3--2--2--2--3--3-----

e. ------------------------------------------------------------
B. ------------------------------------------------------------
G. ------------------------------------------------------------
D. ------------------------------------------------------------
A. ---------------------------------3--3--3--3--3-3-3----------
E. --2--2--2--3--2--2--2--3--3---------------------------------

Y este es el final que sale ya que se acaba la
cancion.

e ----------------------------------
B ----------------------------------
G ------------2--0------------------
D ---0/2--4---------4--2--0--0------
A ----------------------------------
E ----------------------------------

Ver 2.0

E-----0---2--5-3-0-------------------------------------
B--1-------------------1-------------------------------
G-------------------------2----------0-----------------
D-----------------------------4-4-4--------------------
A------------------------------------------------------
E------------------------------------------------------


E-----0---2--5-3-0-------------------------------------------
B-1-------------------1--------------------------0---2-2-2-3-
G------------------------2---------0----------0--------------
D----------------------------4-4-4----4-4-4------------------
A------------------------------------------------------------
E------------------------------------------------------------



Descarga Megaupload



Descarga Rapid-Share




Lamento Boliviano - Enanitos Verdes (Tab+Acordes)

sábado, 8 de agosto de 2009 comentarios

Lamento Boliviano - Enanitos Verdes


Mim.........................
Me quieren agitar me incitan a gritar
Sim...............................
soy como una roca, palabras no me tocan
Lam...............................
adentro hay un volcán que pronto va a estallar
Mim............ Si7
yo quiero estar tranquilo.


Mim........................
Es mi situación una desolación
Sim..........................
soy como un lamento, lamento boliviano
Lam..........................
que un día empezó y no va a terminar
Mim Si7
ya nadie hace daño.


Mim Sim Lam Mim Si7
1. Uoh-yoh-yoh-yoh-oh-oh eh-eh-eh-eh-yeh

--7-----7--7-----5--5-----7--------------------|

--8-----7----7---5---5----7--------------------|
--9-----7--------5--------7--------------------|
--9-----9--------7----7---9--7-7-7-7-7-7-7-7---|
--7-----9--------7--------9--9-9-9-9-9-9-9-9---|
--7-----7--------5--------7--7-7-7-7-7-7-7-7---|


Para ver los acordes de toda la cancion, descarga el tab abajo
(solo incuido)


Descarga Megaupload



Descarga Rapid-Share




Ricardo Arjona - Sin Ti... Sin Mi (Acordes)

martes, 4 de agosto de 2009 comentarios: 2
Ricardo Arjona - Sin Ti... Sin Mi



G .................. D
Qué hace el sexo en Internet,
..............C
el pudor en la vedette,
...................G
que hace un porche en Tel Aviv;
G .......... D
un pigmeo en un iglú,
............C
una duda en un Gurú,
................G
qué hace Frida sin sufrir.

D ................. Em
Si así como quien no quiere la cosa,
C........... G............. D
más fácil disparar rosas un misil que tú un quizás,
C ................... G
quién me manda a ser adicto de tus besos,
....................D
si la luna no es de queso,
.........Em
ni tu boca souvenir.

C............... G
Qué hace un casto en un Motel,
....................D
qué hace un genio en un cuartel,
C.... ........... G.. D ..C
y que estás haciendo tú......sin mí.


...Descarga los acordes de toda la cancion abajo...

Descarga Megaupload



Descarga Rapid-Share




Flaca - Andres Calamaro (Tab Corregida)

domingo, 2 de agosto de 2009 comentarios: 2
Una cancion que ademas de muy buena es muy sencilla tanto el intro...

Como la cancion en si.. =)

Se las dejo para que la practiquen un poco.. :P


Flaca - Andres Calamaro


e---------------------------------------------------------------|
B-3-----------4-----------5------------3-1---3-----------4------|
G---4-2-0-2-4----4-2-0-2-4---4-2-0-2-4-----4---4-2-0-2-4---
4-2-0|
D---------------------------------------------------------------|
A---------------------------------------------------------------|
E---------------------------------------------------------------|


CORO

SOL ............. Si
Flaca, no me claves
Mim ................. Do
tus puñales, por la espalda
Sol................ Re
tan profundo, no me duelen
.......Sol ..... Re
no me hacen mal


..SOL ....... Si
Lejos, en el centro
...Mim.............. Do
de la tierra, las raices
.....Sol ............... Re
del amor, donde estaban
..Sol......... Re
quedaran

ESTROFAS

SOL ........ Si.....................
Entre no me olvides me deje nuestros abriles
Mim .................... Do
olvidados, en el fondo del placart
...................Sol ..........Re
en el cuarto de invitados eran tiempos dorados
........Sol ......... Re
un pasado mejor


Descarga Megaupload



Descarga Rapid-Share




Ejercicios de Calentamiento Nro 1

sábado, 1 de agosto de 2009 comentarios
El Calentamiento

El CALENTAMIENTO de los músculos de la mano, es algo que no se nos debe olvidar, ya sea para mano Izquierda o Derecha antes de empezar a tocar.

Es conveniente hacer algunos ejercicios de calentamiento para evitar la TENDINITIS, que no es mas que una inflamación en los tendones que mueven tus dedos, lo cual te puede hacer que dejes de tocar la guitarra por algunas semanas, ya que el dolor es intenso.

Lo más recomendable, seria que antes de empezar a tocar alguna canción que te exija demasiada velocidad o fuerza en los dedos realices algunos ejercicios de calentamiento:


1|----------------------------------------------------1-2-3-4----|
2|------------------------------------------1-2-3-4--------------|
3|--------------------------------1-2-3-4------------------------|
4|----------------------1-2-3-4----------------------------------|
5|------------1-2-3-4--------------------------------------------|
6|--1-2-3-4------------------------------------------------------|


Tienen que recordar que, para una correcta ejecucion del ejercicio, deben tocar cada traste o pisada con su respectivo dedo...

Es decir el dedo indice solo tocara en el primer traste, el dedo medio solo tocara en el segundo traste,
el dedo anular solo en el tercer traste y el dedo meñique solo hara las pisadas del cuarto traste..

De esta manera cada dedo tiene su propio traste por asi decirlo..

Esa es una manera de poder estirar los musculos antes de tocar alguna cancion.. =)


Mis otros Blogs