Concurso Musical !!!

Satisfaccion - Rolling Stones (Tab+Acordes)

martes, 29 de septiembre de 2009 comentarios: 1
Satisfaccion - Rolling Stones




Intro:
E ||------------------------------------------|
B ||------------------------------------------|
G ||------------------------------------------|
D ||------------------------------------------|
A ||--2---2------2----4--5---5--5^4--4^2------|
E ||------------------------------------------|

E.......
  I can't get no
A.......
  satisfaction
E......
  I can't get no
A.....
  satisfaction
<..Para ver la tablatura completa con su solo descargate el tab aca abajo..>

Descarga Megaupload



Descarga Rapid-Share


Descargar Cancion

Enter Sandman - Metallica (Full Tab+Solo)

sábado, 26 de septiembre de 2009 comentarios: 42
Enter Sandman - Metallica





Intro:


E|---------------------------------|
B|---------------------------------|
G|---------------------------------|
D|------------5--------------------|
    A|--------7---------------7--------| x12
E|----0-----------6---5------------|



 ....PM--------------------|  .....   PM------------------------| ...... 
E|-------------------------------------------------------------------|
B|-------------------------------------------------------------------|
G|-------------------------------------------------------------------|
D|-------------------------------------------------------------------|
   A|--2--------------------------5/7-----------------------------5/7---| x2
E|--0---0---0---0---0---0---0--------0---0---0---0---0---0---0-------|


 PM--|          PM------|          PM--|               PM--|    
1|-----------------------------------------------------------------------|
2|-----------------------------------------------------------------------|
3|-----------------------------------------------------------------------|
4|-----------------------------------------------------------------------|
5|----------7------------------3\2-------------7-------------------3\2---|
6|--0---0------6---0---0---0---1\0-----0---0-------6---5---0---0---1\0---|
    

|-------------4x-------------|     |--------------8x-------------|


<..Para ver la tablatura completa con su solo descargate el tab aca abajo..>

Descarga Megaupload



Descarga Rapid-Share



Come As You Are - Nirvana (Tab+Solo)

miércoles, 23 de septiembre de 2009 comentarios: 4
Come As You Are - Nirvana





El Riff Principal es el Siguente:


E -----||-------------------------------------------------||-
B -----||-------------------------------------------------||-
G -----||-------------------------------------------------||-
D -----||-------------------------------------------------||-
A -----||-----------0-----0------------------2----------2-||-
E --0--||--0--1--2-----2-----2---2---1---0-------0---0----||-


Puede ser tocado en afinacion estandar E o en Re - D de la siguente manera


D -----||-------------------------------------------------||-
A -----||-------------------------------------------------||-
F -----||-------------------------------------------------||-
C -----||-------------------------------------------------||-
G -----||-----------0-----0------------------2----------2-||-
D --0--||--0--1--2-----2-----2---2---1---0-------0---0----||-


<..Para ver la tablatura completa con su solo descargate el tab aca abajo..>

Descarga Megaupload



Descarga Rapid-Share


Historia de un taxi - Ricardo Arjona (Acordes)

domingo, 20 de septiembre de 2009 comentarios: 18

Historia de un Taxi - Ricardo Arjona

(El Taxista)




Dm.....................

Eran las diez de la noche
.............C
piloteaba mi nave
...............A#
era mi taxi un wolkswagen
.......Dm
del año 68


Era un dia de esos malos
................C
donde no hubo pasaje
.....................A#
las lentejuelas de un traje
.................Dm
me hicieron la parada

..................................C
Era una rubia preciosa llevaba minifalda
................A#
y el escote en su espalda
.........................Dm ..Dm-C-F
llegaba justo a la gloria





Descarga Megaupload



Descarga Rapid-Share




Fences - Paramore (Full Tab + Solo)

martes, 15 de septiembre de 2009 comentarios: 1
Fences - Paramore

INTRO

Guitarra1

Bm ------------- Bm
|--------2~----|--------2~----|

|-------3~-----|-------3~-----|

|------4~------|------4~------|
|-----4~-------|-----4~-------|
       |----2~--------|----2~--------| x2
|--------------|--------------|

Em ---------- A
|--x-x-x-x-x-x--|--x-x-x-x-x--|

|--8-8-8-8-8-8--|--5-5-5-5-5--|

|--9-9-9-9-9-9--|--6-6-6-6-6--|

|--9-9-9-9-9-9--|--7-7-7-7-7--|

|--7-7-7-7-7-7--|--7-7-7-7-7--|
|---------------|--5-5-5-5-5--|

|-------2~----|
|------3~-----|
|-----4~------|
|----4~-------|
|---2~--------|
|-------------|


|--------|------|-------|---------|-----------|
|--------|------|-------|---------|-----------| |-----9~-|---7~-|----6~-|-----9~--|------6~---| |----9~--|--7~--|---7~--|----9~---|-----7~----| |---7~---|-5~---|--7~---|---7~----|----7~-----| |--------|------|-5~----|---------|---5~------|


<..Para ver la tablatura completa con su solo
descargate el tab aca abajo..>


Descarga Megaupload



Descarga Rapid-Share




21 Guns - Green Day (Acordes-Chords)

sábado, 12 de septiembre de 2009 comentarios: 8

Intro: (Instrumental)




Dm . Bb . F . C
e|-------------------|
B|---6---3--10---5---|
G|-------------------|
D|-------------------|
A|---5---1---8---3---|
E|-------------------|


Estrofa 1:


Dm .... Bb ............... F ....... C
Do you know what's worth fighting for
Dm ...... Bb ........ F .... C
When it's not worth dying for?
Dm .... Bb ...... F .... C
Does it take you breath away
Bb ........... C
And you feel yourself suffocating?




Dm .... Bb ....... F ...... C
Does the pain weight out the pride?
Dm .... Bb ....... F ...... C
And you look for a place to hide?
Dm ...... Bb .......... F ...... C
Does someone break your heart inside?
...........Bb ... C
You're in ruins
>>> Ver Video <<<


<..Para ver la tablatura completa con su solo descargate el tab aca abajo..>

Descarga Megaupload



Descarga Rapid-Share




Dani California - Red Hot Chilli Peppers (Full Tab+Solo)

miércoles, 9 de septiembre de 2009 comentarios


Intro:

 



e|----------------|----------------|
B|-----5-------3--|-----6-------5--|
G|-----5-------4--|-----7-------5--|
    D|-----7-------5--|-----7-------7--|  2x
A|----------------|-5-5------------|
E|-5-5—--x-3-3----|--------5-5-----|


e|----------------|----------------|
B|-----5-------3--|-----6-------5--|
G|-----5-------4--|-----7-------5--|
     D|-----7-------5--|-----7-------7--|  2x 

A|----------------|-5-5------------|
E|-5-5—--x-3-3----|--------5-5-----|



e|-------------------------|--------------------|
B|-------------------------|--------------------|
G|-----5h7p5--------4h5p4--|------7------x----5-|
D|-7--------7—-x-5-------5-|-0-----------x-5h7--|
A|-------------------------|--------------------|
E|-------------------------|--------------------|



<..Para ver la tablatura completa con su solo descargate el tab aca abajo..>

Descarga Megaupload



Descarga Rapid-Share




Bring Me To Life (Acoustic) - Evanescence

lunes, 7 de septiembre de 2009 comentarios: 1
   Bring Me To Life (Acoustic) - Evanescence




Em                    C                Am               D
How can you see into my eyes like open doors
Em                   C                     Am
Leading you down into my core
                       D
Where I’ve become so numb



Em                C            Am
Without a soul
                   D                           Em
My spirit sleeping somewhere cold
                 C                        Am     D
Until you find it there and lead it back home





Em
(Wake me up) Wake me up inside
G
 (I cant wake up) Wake me up inside
                  D                             C            Am            Em
     Call my name and save me from the dark



<..Para ver la tablatura completa con su solo descargate el tab aca abajo..>

Descarga Megaupload



Descarga Rapid-Share


Descargar Cancion

Its My Life - Bon Jovi (Tab+Solo)

sábado, 5 de septiembre de 2009 comentarios

Its My Life - Bon Jovi

Intro:
 


(El fondo lo tocan un teclado)
E------------------------------------------------------------|

B------------------------------------------------------------|
G--5---5------------------------------------5---5------------|
D--5---5------------------------------------5---5------------|
A--3---3------------------------------------3---3------------|
E------------------------------------------------------------|

(Estos Acordes No se dejan presionados, solo se tocan y se sueltan)
|--------------------------------------------------------------|
|--------------------------------------------------------------|
|--5--5---------------------------------------5--5--x--x--5----|
|--5--5---------------------------------------5--5--x--x--5----|
|--3--3---------------------------------------3--3--x--x--3----|
|--------------------------------------------------------------|
This ain't a song for the broken hearted.

|-----------------------|-------------------|-------------------|
|-----------------------|-------------------|-------------------|
|--5--------------------|-------------------|--5--5--x--x--5----|
|--5--------------------|-------------------|--5--5--x--x--5----|
|--3--------------------|-------------------|--3--3--x--x--3----|
|-----------------------|-------------------|-------------------|
A silent prayer for the faith departed.


<..Para ver la tablatura completa con su solo descargate el tab aca abajo..>

Descarga Megaupload



Descarga Rapid-Share




Minutos - Ricardo Arjona (Tab+Acordes)

jueves, 3 de septiembre de 2009 comentarios: 1
Minutos - Ricardo Arjona
  E-----------------------------------------------------------|
B--------0--------------0--------------0---------------0----|
G-----------------------------------------------------------|
D-----4----4----------4---4----------4---4----------4----4--|

A--2--------------------------------------------------------|

E-------------------2-------------4---------------0---------|


Intro: B F# G#m E


E ........ . .....B.. F# ......  G#m E
El reloj de pared anunciando las 6:23
...............B F# ................ G#m ......  E
el pasado con sed y el presente es un atleta sin pies

B ........... F# .. G#m ....................... E

ya son las 6:43 y el cadáver del minuto que paso
B ............. F# ..
me dice sí se vive aquí te guste o no
..........G#m .........  E ......... B  F#
y la nostalgia pone casa en mi cabeza
G#m E B F# G#m
Y dan las 6 con 50




Descarga Megaupload



Descarga Rapid-Share




Mis otros Blogs