Concurso Musical !!!

FELIZ AÑO A TODOS !!!

jueves, 31 de diciembre de 2009 comentarios: 4



Alegres Cascabeles - Villancicos (Tab)

miércoles, 30 de diciembre de 2009 comentarios: 1







e----------------------------------------------
B-0-0-0--0-0-0-0-3---0-1-1-1--0-0-0--0----0--3-
G-----------------0-2------------------2-2-2---
D----------------------------------------------
A----------------------------------------------
E----------------------------------------------


e----------------------------------------------
B-0-0-0--0-0-0-0-3---0-1-1-1--0-0-0-3-3-1------
G-----------------0-2---------------------2-0--
D----------------------------------------------
A----------------------------------------------
E----------------------------------------------

<..Para ver la tablatura completa descargate el tab aca abajo..>

Descarga Megaupload



Descarga Rapid-Share


Blanca Navidad - Villancicos (Tab+Acordes)

comentarios: 1






e------------------|-----------------|-----------------------|
B------------------|-----------------|-----------------------|
G·-----------------|-----------------|---------------0--0----|
D·------2--0-------|-------2--0------|------3--2--0----------|
A-------------3----|-------------3-0-|-000-------------------|
E--333----------3--|--333------------|-----------------------|


e-----------------------|-----------------|------------------|
B-----------------------|-----------------|------------------|
G--0--0--2--0-----------|-----------------|------------------|
D--------------3--0--2--|-----2--0--------|-------2--0-------|
A-----------------------|-----------3-----|-------------3--0-|
E-----------------------|-333----------3--|--333-------------|


e---------------------|-----------------------|--------------|
B---------------------|-----------------------|--------------|
G---------------0--0--|--0--0--2--0-----------|--------------|
D------3--2--0--------|--------------3--0-----|-2-2-2--2-2-2-|
A-000-----------------|--------------------3--|--------------|
E---------------------|-----------------------|--------------|

Descargate el Archivo Abajo para obtener las letras tambien !!

<..Para ver la tablatura completa descargate el tab aca abajo..>

Descarga Megaupload



Descarga Rapid-Share


Feliz Navidad - Villancicos (Acordes)

comentarios






D7 ........ G .. A ....... D
Feliz Navidad. Feliz Navidad.

D7 ........ G .. A ........ D
Feliz Navidad, próspero año y felicidad.

D7 ..... G .. A .... D .. D7 ... G
Feliz Navidad. Feliz Navidad. Feliz Navidad,

.....A ...... D...
próspero año y felicidad.



D7 ............... G............
I wanna wish you a merry christmas.

A ............. D..........
I wanna wish you a merry christmas.

<..Para ver la tablatura completa con su solo descargate el tab aca abajo..>

Descarga Megaupload



Descarga Rapid-Share



Burrito Sabanero - Villancicos (Acordes)

lunes, 28 de diciembre de 2009 comentarios: 3






G ............. C ...... D7 ........... G
Con mi burrito sabanero voy camino de Belén
G ............. C ....... D7 ............ G
Con mi burrito sabanero voy camino de Belén
...C ..... G .......... D7 ...... G
Si me ven, si me ven, voy camino de Belén
...C ..... G ......... D7 ...... G
Si me ven, si me ven, voy camino de Belén
G ........ C ...... D7 ....... G
El lucerito mañanero ilumina mi sendero
G ......... C ....... D7 ........ G
El lucerito mañanero ilumina mi sendero


.....C ...... G ........... D7 ........ G
Si me ven, si me ven, voy camino de Belén
......C ....... G .......... D7 ......... G
Si me ven, si me ven, voy camino de Belén

Puedes encontrar los Acordes Usados en el Archivo Descargable :)

<..Para ver la tablatura completa descargate el tab aca abajo..>

Descarga Megaupload



Descarga Rapid-Share


Descargar Cancion

Noche de Paz - Cancion Navideña (Tab)

miércoles, 23 de diciembre de 2009 comentarios: 9



e||---------------------------|-----------------------|
B||---------------------------|--3--3--0--0--1--1-----|
G||·--0--2--0-----0--2--0-----|--------------------0--|
D||·-----------2-----------2--|-----------------------|
A||---------------------------|-----------------------|
E||---------------------------|-----------------------|


e||---------------------------------|--------------------------------|
B||------------1--0-----------------|-----------1--0-----------------|
G||---2--2--2--------2--0--2--0-----|--2--2--2--------2--0--2--0-----|
D||------------------------------2--|-----------------------------2--|
A||---------------------------------|--------------------------------|
E||---------------------------------|--------------------------------|


e||------------1--0--------0--|-----------|---------------||
B||---3--3--3--------0--1-----|--1--------|---------------||
G||---------------------------|-----0-----|--0-----------·||
D||---------------------------|--------2--|-----3--0-----·||
A||---------------------------|-----------|-----------3---||
E||---------------------------|-----------|---------------||


<..Para ver la tablatura completa con su solo descargate el tab aca abajo..>

Descarga Megaupload



Descarga Rapid-Share


Jingle Bells - Cancion Navideña (Tab)

domingo, 20 de diciembre de 2009 comentarios: 4






E-||----------------------------------------------------------||
B-||-0-0-0—--0-0-0---0-3--------0----1-1-1---0-0-0-------0----||
G-||----------------------0-2-----------------------2-2-----2-||
D-||----------------------------------------------------------||
A-||----------------------------------------------------------||

E-||----------------------------------------------------------||
E-||----------------------------------------------------------||
B-||--3—--0-0-0----0-0-0—-0-3-------0--1-1-1---0-0-0—-3-3---1-||
G-||---------------------------0-2----------------------------||
D-||----------------------------------------------------------||
A-||----------------------------------------------------------||
E-||----------------------------------------------------------||

E-||----------------------------------------------------------||
B-||----------------------------------------------------------||
G-||-2-0------------------------------------------------------||
D-||----------------------------------------------------------||
A-||----------------------------------------------------------||
E-||----------------------------------------------------------||

<..Para ver la tablatura completa descargate el tab aca abajo..>

Descarga Megaupload



Descarga Rapid-Share


Descargar Cancion

I cant stand loosing you - Sting (Tab+Acordes)

martes, 15 de diciembre de 2009 comentarios: 2




Intro:
Dm | Gm | x 4


Verso 1:
Dm .................. Gm
I've called you so many times today
Dm ....................... Gm
And I guess its all true what your girlfriends say
Dm ........ Gm
You don't ever wanna see me again
Dm ........................... Gm
And yer brother's gonna kill me and he's 6 feet 10


Pre Coro 1:
Bb ...... F ...... Bb ...... F
I guess you'd call it cowardness
C ...... G ........ C ...... A
But to carry on living doesn't make much sense

<..Para ver la tablatura completa con su solo descargate el tab aca abajo..>

Descarga Megaupload



Descarga Rapid-Share


Descargar Cancion

Manda una Señal - Mana (Tab+Acordes)

martes, 8 de diciembre de 2009 comentarios: 1





Intro:
 
C G Am G

    C
Te quiero si te quiero
    G                            Am     G
voy andando como fiera tras tus pies amor
    C                     G
Te veo y te deseo pero tu
                                  Am   G
tienes tu dueño y no te puedes safar


    Am       G        C
Los dias se pasan sin ti
     Am         G        C
Las noches se alargan sin ti
      Dm              G
Sin tu amor sin tus besos


<..Para ver la tablatura completa con su solo descargate el tab aca abajo..>

Nota: El Mp3 adjunto abajo es una version acustica.. =)

Descarga Megaupload



Descarga Rapid-Share


Descargar Cancion

Cuando Los Angeles Lloran - Mana (Full Tab)

miércoles, 2 de diciembre de 2009 comentarios






.....D(E)                       G(A)..............
e|------4-------4p2----------|-------5------5---2-------|
B|-----5------5------5-2-----|------5-----5---------4---|
G|----4-----4--------4-2-4---|-----2----2-----------4---|
D|---2-------------------6---|----2---------------------|
A|---------------------------|---2--------------2-------|
E|-------------------4-------|--5-----------------------|

.....D(E)                        G(A)........................
e|------4-------4p2----------|-------5------5----------------|
B|-----5------5------5-2-----|------5-----5-------5--4p2-4---|
G|----4-----4--------4-2-4---|-----2----2------6-------------|
D|---2-------------------6---|----2--------------------------|
A|---------------------------|---2----------------2----------|
E|-------------------3-------|--5----------------------------|


<..Para ver la tablatura completa con su solo descargate el tab aca abajo..>

Descarga Megaupload



Descarga Rapid-Share


Descargar Cancion

Sonohra - Buscando El Amor (Acordes)

miércoles, 25 de noviembre de 2009 comentarios: 1
Sonohra – Buscando El Amor

Em C G D F#m E A


El capo va en el tercer traste


Em ................. C
Miro al cielo que ya no tiene colores
Em ............... C
ya no veo al sol y son grises las flores
Em ........ C ....... G ........ D
la única verdad son tus ojos muy dentro de mi


Em ............ C
Dos fotografías tan solo han quedado
Em ....... C
que sobre mi cama el tiempo ha dejado
Em ... C .... G
la distancia que nos divide me duele también
D
Si no te vas
C ...... D
Mi amor tendrás



Descarga Megaupload



Descarga Rapid-Share





Himno a la alegria - Beethoven (Tab Facil)

miércoles, 11 de noviembre de 2009 comentarios: 16

 
 Recuerda Participar en el
"Concurso Musical"

e-|-0-0-1-3-3-1-0-------0-0-----|-0-0-1-3-3-1-0-------0------|
B-|--------------3-1-1-3---3-3--|--------------3-1-1-3-3-1-1-|
G-|-----------------------------|----------------------------|
D-|-----------------------------|----------------------------|
A-|-----------------------------|----------------------------|
E-|-----------------------------|----------------------------|

e-|--0---0-1-0---0-1-0----------|
B-|-3-1-3-----1-3-----3-1-3-----|
G-|------------------------0----|
D-|-----------------------------|
A-|-----------------------------|
E-|-----------------------------|


e-|-0-0-1-3-3-1-0-------0------|
B-|--------------3-1-1-3-3-1-1-|
G-|----------------------------|
D-|----------------------------|
A-|----------------------------|
E-|----------------------------|


<..Para ver la tablatura completa con su solo descargate el tab aca abajo..>

Descarga Megaupload



Descarga Rapid-Share


Descargar Cancion

Mario Bros Theme (Tab)

domingo, 8 de noviembre de 2009 comentarios: 2



Recuerda que aun puedes participar en el
"Concurso Musical"

E-0-0---0-------0---3-----|
B-----------1-------------|
G-----------------------0-|
D-------------------------|
A-------------------------|
E-------------------------|

E-----------------------0--3--5--1--3--0-----------|
B-1---------0-----------------------------1--3--0--|
  G----0----2---3--2---0-----------------------------|x2
D------2-------------------------------------------|
A--------------------------------------------------|
E--------------------------------------------------|

<..Para ver la tablatura completa descargate el tab aca abajo..>

Descarga Megaupload



Descarga Rapid-Share


Descargar Cancion

Dejame Entrar - Mana (Full Tab)

jueves, 5 de noviembre de 2009 comentarios: 3



INTRO:



e|--------------------------------xx-8-x-7--5-----|
B|--------------------------------xx-8-x-7--5-----|
G|--------------------------------xx-9-x-8--5-----|
D|-7--7--7-7--10-7-10------7--7---------------xx--|
A|-7--7--7-7--10-7-10--x-x-7--7---------------xx--|
E|-5--5----------------x-x-5--5---------------xx--|


e|--------------------------------xx-8-x-10--5--|
B|--------------------------------xx-8-x-10--5--|
G|--------------------------------xx-9-x-11--5--|
D|-7--7--7-7--10-7-10------7--7-----------------|
A|-7--7--7-7--10-7-10--x-x-7--7-----------------|
E|-5--5----------------x-x-5--5-----------------|


Am.............................
Dejame entrar en la alberca de tus ojos
G ..............................

Dejame entrar en la alberca de tu ombligo
D ........... DDDD ....... Am
Yo no te obligo nena Dejame entrar

<..Para ver la tablatura completa con su solo descargate el tab aca abajo..>

Descarga Megaupload



Descarga Rapid-Share


Descargar Cancion

Mis otros Blogs