Concurso Musical !!!

Himno a la alegria - Beethoven (Tab Facil)

miércoles, 11 de noviembre de 2009 comentarios: 16

 
 Recuerda Participar en el
"Concurso Musical"

e-|-0-0-1-3-3-1-0-------0-0-----|-0-0-1-3-3-1-0-------0------|
B-|--------------3-1-1-3---3-3--|--------------3-1-1-3-3-1-1-|
G-|-----------------------------|----------------------------|
D-|-----------------------------|----------------------------|
A-|-----------------------------|----------------------------|
E-|-----------------------------|----------------------------|

e-|--0---0-1-0---0-1-0----------|
B-|-3-1-3-----1-3-----3-1-3-----|
G-|------------------------0----|
D-|-----------------------------|
A-|-----------------------------|
E-|-----------------------------|


e-|-0-0-1-3-3-1-0-------0------|
B-|--------------3-1-1-3-3-1-1-|
G-|----------------------------|
D-|----------------------------|
A-|----------------------------|
E-|----------------------------|


<..Para ver la tablatura completa con su solo descargate el tab aca abajo..>

Descarga Megaupload



Descarga Rapid-Share


Descargar Cancion

comentarios: 16

PHER :

A priori no es dificil, he seguido los pises marcados aqui, y con un poco de practica, saldria, aunque no es la guitarra lo que yo toco, sino un instrumento mas pequeño, y con una cuerda menos. Lo que pasa, que se pueden adoptar los acordes de guitarra. ¿Porque no nos haces una muestra que se pueda escuchar?. Un saludo

Claudia :

Hola, el tema es precioso. Te esperamos en el concurso. Saludos y buen fin de semana.

Anónimo :

Waw gran canción soy novato en la guitarra así q este tema lo aprendi con facilidad graciias, saludos

Anónimo :

Muy facil para mi primera cancion que toco en guitarra, me salio a la primera (:, concuerdo con mi compañero, deberias de poner una toma de audio para ver como se escucha o algo por el estilo..

Anónimo :

idiota lo hice sin tu ayuda de putin

Anónimo :

Muchas gracias.El tema esta bien ecrito,y esta mu bueno ^_^

Anónimo :

o que facil es y suena bien gracias mandanos mas

JUANI :

ES RE FACIL OJALA MANDEN MAS LOCO ES MUY FACIL SINCERAMENTE QUISIERA PERDIR ALGO MAS ABANzADO

Anónimo :

I'm not sure where you are getting your information, but good topic. I needs to spend some time learning more or understanding more. Thanks for magnificent information I was looking for this information for my mission.

my web-site - Daily car insurance

Anónimo :

Son todos tragaleches 1 2 ultraviolento y ahora que pasaaa

Anónimo :

bueno yo lo buscaba en finguerstyle , este esta muy facil :/ , pero esta bn para principiantes, :)

Publicar un comentario en la entrada

Mis otros Blogs