Concurso Musical !!!

Cumpleaños Feliz (Tab - Facil)

domingo, 24 de mayo de 2009 comentarios: 2
Tab de Cumpleaños Feliz o El payaso plin-plin

(es la misma cancion con distinta letra)

Una tablatura muy sencilla que nos ayuda a practicar algunos punteos.. =)

E--------------1--0------------------------3----1---
B--1--1--3--1---------1---1---3------1--------------
G---------------------------------------------------
D---------------------------------------------------
A---------------------------------------------------
E---------------------------------------------------

E---------8--5--1--1----0------6--6--5---1--3--1----
B--1--1--------------------3------------------------
G---------------------------------------------------
D---------------------------------------------------
A---------------------------------------------------
E---------------------------------------------------



comentarios: 2

kAnEdA :

Jajaja. Qué mítico el tab del cumpleaños feliz. Yo también me inicié en el mundo de la guitarra con él. Buen blog amigo. Visita el mío si te apetece. Es éste. Un saludo.

Publicar un comentario en la entrada

Mis otros Blogs