Concurso Musical !!!

And I Love Her - The Beatles (Tab+Acordes+Solo)

domingo, 28 de noviembre de 2010 comentarios: 6


Intro:
F#m                E6               F#m   
e|-------------------------------------------------------------
B|-------------------------------------------------------------
G|-------------------------------------------------------------
D|-------------------------------------------------------------
A|------7--6--4---------7--6--4---------7--6--4----------------
E|---7---------------7---------------7-------------------------


Parte 1:

F#m      C#m      F#m     C#m
I give her all my love That's all I do

F#m      C#m      A        B7
And if you saw my love You'd love her too

E
And I love her


Parte 2:


F#m                          C#m                 
-|----------9--------------9------------9-----------9----------
-|------10-----10------10-----10-----9-----9-----9-----9-------
-|--11-------------11-------------9-----------9----------------
-|-------------------------------------------------------------
-|-------------------------------------------------------------
-|-------------------------------------------------------------
She gives me every thing

F#m                          C#m                 
-|----------9--------------9------------9-----------9----------
-|------10-----10------10-----10-----9-----9-----9-----9-------
-|--11-------------11-------------9-----------9----------------
-|-------------------------------------------------------------
-|-------------------------------------------------------------
-|-------------------------------------------------------------
And tender ly



<..Para ver la tablatura completa con su solo descargate el tab aca abajo..>  

Descarga Megaupload

Descargar Cancion

comentarios: 6

Anónimo :

El punteeo en realidad es mas dificil

Anónimo :

I have been browsing online more than three hours today, yet I never found any interesting article like yours.
It's pretty worth enough for me. In my view, if all site owners and bloggers made good content as you did, the web will be much more useful than ever before.

Also visit my website :: www.Lawentrance.Com

Anónimo :

Seeing that I was pretty livid about having to drive all the way back
less than an hour after my purchase, he sold me 2
Monster HDMI cables at $100 for them both, which was
a deal considering they were originally priced at $75.
Your digital TV company should have just about
every HD channel currently broadcast on hand, but confirm just in case before you get a new HDTV.
But if you don't know what to look for you can end up with a low resolution picture with washed out colors.

Also visit my web page; oceanic cable

Anónimo :

I go to see day-to-day some blogs and sites to read articles or reviews, but this weblog offers quality based posts.


my blog; Sitefinity.com

Anónimo :

Howdy! I just wish to give an enormous thumbs up for the
great information you’ve got right here on
this post. I might be coming again to your blog for extra
soon.

Visit my web-site :: cheap semi formal dresses under 100

Publicar un comentario en la entrada

Mis otros Blogs